Tylko (Illusion)

1.




Ref.


2.




Ref.
Wyrzeźb sam w kamieniu, swoją twarz,
pozostaw w skale ślad.
I przytul się do serca, matki swej,
i słuchaj szumu drzew.

Tylko zrozum to, że ludzie płaczą czystą krwią.
Tylko zrozum to, że to twój los.

Nie możesz być już ślepy, jak każdy kret,
masz widzieć każdy ból .
I bijąc sercem w mur, otworzyć drzwi,
by słuchać szumu drzew.

Tylko zrozum to, że ludzie płaczą czystą krwią.
Tylko zrozum to, że to twój los.
 Riff zwrotki:
Eb-----------------------------------------
Hb-10--------7--------5--------3--------
Gb------0--------0--------0--------0----
Db----0---0----0---0----0---0----0---0-
Ab-10--------7--------5--------3--------
Eb-----------------------------------------

Riff refrenu:
Eb---------------------------------------------
Hb-3-3--------3---------3-3--------3--------
Gb-------0--------0-----------0--------0----
Db-----0---0----0---0-------0---0----0---0-
Ab-3-2--------3---------3-2--------3--------
Eb---------------------------------------------
Joomla templates by a4joomla